advertisement
Autoscroll
Transpose

Lirik dan Chord Superhero Lauv

lauv-superhero

Lirik dan Chord
Superhero
Lauv

Chord Used: G    G    Em    D    Bm     

    
[Intro Plucking]
   G           G             Em          D
e|-------------------------|-------------------------|
B|--0--0--0--0--0--0--0--0-|--0--0--0--0--3--3--3--3-|
G|--0--0--0--0--0--0--0--0-|--0--0--0--0--2--2--2--2-|
D|--4----------------------|-------------0--0--0--0--|
A|-------------3--3--3--3--|-------------------------|
E|-3--3--3--3--------------|-0--0--0--0--------------|


 
[You can either play this for the first chorus and first post chorus or the chords instead]


   G           C             Em          D
e|-------------------------|-------------------------|
B|--0--0--0--0--0--0--0--0-|--0--0--0--0--3--3--3--3-|
G|--0--0--0--0--0--0--0--0-|--0--0--0--0--2--2--2--2-|
D|-------------------------|-------------0--0--0--0--|
A|-------------3--3--3--3--|-------------------------|
E|-3--3--3--3--------------|-0--0--0--0--------------|
[Chorus]
G
I met a superhero
C
I lost her
Em            D
I want her back
        G                 C
She did things to me that no one else could
Em         D
And I miss that
 
[Post-Chorus]
G   C
Ohhh
C
Don’t wanna talk about it
Em  D
Oooh
D
I was so wrong about it
G   C
Oooh
C
Can’t do a thing about it now
Em  D
Now
      C        D      Em       Bm      C
Cause they say if you love her let her go
    C        D       Em       Bm        C
And they say if it’s meant to be you’ll know
D
Know
 
[In the second chorus there is a slight difference that's located on the b string]
 
[Basically it's changed from an open 0 to the 3rd fret, it's very subtle but noticeable on the recording]
 
[Then again you could just play the chords along with the chorus instead of plucking if you wish]

   G           C             Em          D
e|-------------------------|-------------------------|
B|--3--3--3--3--3--3--3--3-|--3--3--3--3--3--3--3--3-|
G|--0--0--0--0--0--0--0--0-|--0--0--0--0--2--2--2--2-|
D|-------------------------|-------------0--0--0--0--|
A|-------------3--3--3--3--|-------------------------|
E|-3--3--3--3--------------|-0--0--0--0--------------|
 
[Chorus]
G
I met a superhero
C
I lost her
Em            D
I want her back
        G                 C
She did things to me that no one else could
Em         D
And I miss that
D
Yeah 
G
I met a superhero
C
I lost her
Em            D
I want her back
        G                 C
She did things to me that no one else could
Em         D
And I miss that
 
[Again the plucking part for this is slightly different, instead of (G C Em D) it's (C G Em D)]
 
[But then again you can just play along with the chords]
 
   C           G             Em          D
e|-------------------------|-------------------------|
B|--3--3--3--3--3--3--3--3-|--3--3--3--3--3--3--3--3-|
G|--0--0--0--0--0--0--0--0-|--0--0--0--0--2--2--2--2-|
D|-------------------------|-------------0--0--0--0--|
A|-3--3--3--3--------------|-------------------------|
E|-------------3--3--3--3--|-0--0--0--0--------------|
 
          C G Em D
I miss that
          C G Em D
I miss that
          C G Em D
I miss that
          C G Em D
I miss that
          C G Em D
I miss that
 
[Bridge]
G   C
Ohhh
C
Don’t wanna talk about it
Em  D
Oooh
D
I was so wrong about it
G   C
Oooh
C
Can’t do a thing about it now
Em  D
Now
 
G   C
Ohhh
C
Don’t wanna talk about it
Em  D
Oooh
D
I was so wrong about it
G   C
Oooh
C
Can’t do a thing about it now
Em  D
Now
 
[Post Chorus Chords]
C D Em Bm C
 
[Chorus]
    C        D       Em       Bm        C    D
And they say if it’s meant to be you’ll know
G
I met a superhero
C
I lost her
Em            D
I want her back
        G                 C
She did things to me that no one else could
Em       D           G
And damn, I miss that
 
[End]